THE BLiNK 182 SHOW Il forum di facebook.com/TheBlink182Show2001

Tabs: Green Day - Warning

  • Posts
  • OFFLINE
    t-ravis182
    Post: 1,725
    Registered in: 9/8/2004
    Location: PORTO EMPEDOCLE
    Age: 33
    Gender: Male
    00 12/14/2004 7:13 PM
    yuppyyyyy finalmenete un mondo tutto nostro!!!!!! ki mi passa le tabsdi warning? non riesco a capirne un pezzo ad orekkio! [SM=g27975]
  • OFFLINE
    afireinside182
    Post: 8,042
    Registered in: 10/2/2003
    Location: BARI
    Age: 36
    Gender: Male
    Il Boss
    00 12/14/2004 11:55 PM
    Green Day - Warning
    Riff 1
    G--------------------------------------------------
    D-------------------4-5-5-4------------------------
    A-----------4-5-5-7---------7-5-5-4----------------
    E-----5-5-7-------------------------7--------------

    Riff 2
    G--------------------------------------------------
    D--------------------------------------------------
    A----------4---------------4-----------------------
    E--------5---5-3-0-----5-5---5-3-0-----------------

    If you learn this, you can figure out the entire song,
    but look below; I?ve already done it.

    Intro
    G--------------------------------------------------
    D-------------------4-5-5-4------------------------ 4 times
    A-----------4-5-5-7---------7-5-5-4----------------
    E-----5-5-7-------------------------7--------------

    Verse 1
    G--------------------------------------------------
    D-------------------4-5-5-4------------------------ 8 times
    A-----------4-5-5-7---------7-5-5-4----------------
    E-----5-5-7-------------------------7--------------

    Chorus
    G--------------------------------------------------
    D-------------------4-8-5-4------------------------ 4 times
    A-----------4-5-5-7---------7-5-5-4----------------
    E-----5-1-7-------------------------7--------------

    Post-chorus Thing
    G--------------------------------------------------
    D-------------------------------------------------- 2 times
    A----------4---------------4-----------------------
    E--------5---5-3-0-----5-5---5-3-0-----------------

    Verse 2
    G--------------------------------------------------
    D-------------------4-5-5-4------------------------ 8 times
    A-----------4-5-5-7---------7-5-5-4----------------
    E-----5-5-7-------------------------7--------------

    Chorus
    G--------------------------------------------------
    D-------------------4-5-5-4------------------------ 8 times
    A-----------4-5-5-7---------7-5-5-4----------------
    E-----5-5-7-------------------------7--------------

    Post Chorus/Bridge
    G--------------------------------------------------
    D-------------------------------------------------- 6 time
    A----------4---------------4-----------------------
    E--------5---5-3-0-----5-5---5-3-0-----------------

    G--------------------------------------------------
    D-------------------4-5-5-4------------------------ 3 times
    A-----------4-5-5-7---------7-5-5-4----------------
    E-----5-5-7-------------------------7--------------

    then

    G-----------------------
    D--------------5--------
    A-------55--------------
    E--55-------------------

    Chorus
    G--------------------------------------------------
    D-------------------4-5-5-4------------------------ 8 times
    A-----------4-5-5-7---------7-5-5-4----------------
    E-----5-1-7-------------------------7--------------

    Outro
    G--------------------------------------------------
    D-------------------4-5-5-4------------------------
    A-----------4-5-5-7---------7-5-5-4----------------
    E-----5-1-7-------------------------7-7------------

    --------------------
  • OFFLINE
    Hurleypunk
    Post: 3,965
    Registered in: 10/6/2003
    Location: MESSINA
    Age: 36
    Gender: Male
    00 12/15/2004 4:03 PM
    really easy [SM=g27964]

    --------------------




  • OFFLINE
    Gibo182
    Post: 6,784
    Registered in: 11/2/2003
    Location: VITTORIO VENETO
    Age: 35
    Gender: Male
    00 12/19/2004 10:22 AM
    ma no mike fa sempre delle cose difficilissime[SM=g27972] ...una semplice scala di la maggiore...

    --------------------


    "CAN'T YOU SEE THAT I'M IN A WORLD OF SHIT"
    [SM=x239835] -MaRk Is ThE bEsT-[SM=x239835]


  • OFFLINE
    blinkgirl
    Post: 4,492
    Registered in: 12/10/2003
    Gender: Female
    Moderatore
    00 1/2/2005 11:34 PM
    Re:

    Scritto da: Gibo182 19/12/2004 10.22
    ma no mike fa sempre delle cose difficilissime[SM=g27972] ...una semplice scala di la maggiore...



    si si infatti.. e poi si permette di insultare mark hoppus!

    --------------------

    you and i should get away for a while... i just wanna be alone with your smile...

  • OFFLINE
    sweet182
    Post: 2,807
    Registered in: 4/25/2004
    Location: CIVITANOVA MARCHE
    Age: 35
    Gender: Female
    00 1/2/2005 11:38 PM
    Re: Re:

    Scritto da: blinkgirl 02/01/2005 23.34


    si si infatti.. e poi si permette di insultare mark hoppus!


    [SM=g27978] [SM=g27979] [SM=g27978] grrrrr

    --------------------
    Kickstart my rock'n'roll heart -Jimmy Eat World <3

  • OFFLINE
    uniposka
    Post: 1,067
    Registered in: 12/7/2003
    Gender: Male
    00 1/3/2005 5:30 PM
    Mark non è che sappia fare chissà cosa...per me è uno zappatore[SM=g27964]

    Dai...ogni chitarrista potrebbe suonare il basso di mark hoppus!(ma anche quello di dirnt,per carità....)

    --------------------




    ...quando anche la puzza dei tuoi peti ti farà schifo allora iniziati a preoccupare...
  • OFFLINE
    perez182
    Post: 7,239
    Registered in: 12/14/2003
    Location: MONSELICE
    Age: 33
    Gender: Male
    00 1/3/2005 8:34 PM
    ki l'ha detto ke solo xkè con i blink nn fa cose difficili nn sia un bravo bassista? secondo me mark e tom sanno fare molto d + di quanto dimostrano.

    un esempio: io so fare il tapping ma sulle canzoni ke facciamo nn lo uso... questo nn vuol dire ke nn ne sia capace[SM=g27959]

    mi sn spiegato?[SM=g27960][SM=g27964]

    --------------------
    YOUNG AND HOSTILE BUT NOT STUPID

    visit us:

    www.myspace.com/hitradioband

    visit me:

    www.myspace.com/perezfuckinboy

  • OFFLINE
    uniposka
    Post: 1,067
    Registered in: 12/7/2003
    Gender: Male
    00 1/4/2005 12:00 PM
    Certo,potrebbe darsi...ma Mark ha sempre detto di non essere bravissimo sul basso e di essere un autodidatta;per questo ho detto quelle cose.

    --------------------




    ...quando anche la puzza dei tuoi peti ti farà schifo allora iniziati a preoccupare...
  • OFFLINE
    Gibo182
    Post: 6,784
    Registered in: 11/2/2003
    Location: VITTORIO VENETO
    Age: 35
    Gender: Male
    00 1/5/2005 7:09 PM
    il fatto che sia un autodidatta non esclude il fatto che sia bravo...

    --------------------


    "CAN'T YOU SEE THAT I'M IN A WORLD OF SHIT"
    [SM=x239835] -MaRk Is ThE bEsT-[SM=x239835]


  • OFFLINE
    uniposka
    Post: 1,067
    Registered in: 12/7/2003
    Gender: Male
    00 1/5/2005 8:03 PM
    per carità...ma mark non si fa a problemi a dire che fa schifo (e per questo per me è un grande!!!!aUHAuaHUAA)

    --------------------




    ...quando anche la puzza dei tuoi peti ti farà schifo allora iniziati a preoccupare...
  • OFFLINE
    perez182
    Post: 7,239
    Registered in: 12/14/2003
    Location: MONSELICE
    Age: 33
    Gender: Male
    00 1/5/2005 8:55 PM
    bè vedendo i video in studio 2003 d quando registravano sa fare molte + cose d quelle ke ne dimostra nei dischi, soprattutto cn la chitarra

    --------------------
    YOUNG AND HOSTILE BUT NOT STUPID

    visit us:

    www.myspace.com/hitradioband

    visit me:

    www.myspace.com/perezfuckinboy

  • OFFLINE
    Hurleypunk
    Post: 3,965
    Registered in: 10/6/2003
    Location: MESSINA
    Age: 36
    Gender: Male
    00 1/6/2005 1:43 PM
    Re:

    Scritto da: perez182 03/01/2005 20.34
    ki l'ha detto ke solo xkè con i blink nn fa cose difficili nn sia un bravo bassista? secondo me mark e tom sanno fare molto d + di quanto dimostrano.

    un esempio: io so fare il tapping ma sulle canzoni ke facciamo nn lo uso... questo nn vuol dire ke nn ne sia capace[SM=g27959]

    mi sn spiegato?[SM=g27960][SM=g27964]

    io l'ho sempre pensata così [SM=g27964]

    --------------------




  • OFFLINE
    CremSardi
    Post: 43
    Registered in: 1/2/2004
    Age: 36
    Gender: Male
    00 1/6/2005 5:31 PM
    Mark Hoppus è perfetto nel suo contesto musicale.

    Niente di più e niente di meno.

    Crem

    --------------------
    "Finiscila con questa merda,o saltero' lissu' a colpire il tuo culo"
    MIke Dirnt urlando a Mark Hoppus dei Blink182
  • OFFLINE
    uniposka
    Post: 1,067
    Registered in: 12/7/2003
    Gender: Male
    00 1/6/2005 5:42 PM
    Beh questo si...

    --------------------




    ...quando anche la puzza dei tuoi peti ti farà schifo allora iniziati a preoccupare...
1