New Thread
Reply
 
Previous page | 1 2 3 | Next page
Vote | Print | Email Notification    
Author

Sab 13.4.24 h 18.15 MI 1600

Last Update: 4/13/2024 8:20 PM
4/12/2024 6:08 PM
 
Modify
 
Delete
 
Quote
 
Email
 
User Profile

OFFLINE
Post: 91,285
Registered in: 7/19/2003
Location: ROMA
Age: 77
Gender: Male
5a Pr. Ipp.Caprilli € 13.200-12-10-1-4-2 € 234.55 Bravo Frankye e bravo Il Tempo che prende Vin/Acc/Tris/Q4 e Q5 !!!!!
1 SCHIELE D. VARGIU 63.5 1

2 SOPRAN BRIGIDA G.SANNA 63.5 7 P

3 CONTE ATTILIO A.SATTA 61.5 6 P

4 SUNNY RIVER C.COLOMBI 61.5 12

5 SABRY DEL LUPO A.MEZZATESTA 61 8

6 COINS CROSS S.URRU 58.5 9 P<---peso medio

7 PADRE DANIELE F. BRANCA 58.5 5 P<---peso medio

8 GEORGE MORLAND L.MANIEZZI 57.5 11 P

9 GAGLIARDO VALERIA. TOCCOLINI 55.5 10

10 LORD BAY D. DI TOCCO 57 4 P

11 REGENCY BUCK M. ARRAS 54.5 3

12 TREVITHICK M. SANNA J. 50 2

Tqq 5a Mi gl Stampe Ippica

[Edited by zebu 4/13/2024 4:21 PM]
4/12/2024 7:32 PM
 
Modify
 
Delete
 
Quote
 
Email
 
User Profile

OFFLINE
Post: 3,914
Registered in: 5/26/2009
Age: 71
Gender: Male
10
9
7
4
5
4/12/2024 7:56 PM
 
Modify
 
Delete
 
Quote
 
Email
 
User Profile

OFFLINE
Post: 2,737
Registered in: 9/8/2013
Location: SAN REMO
Age: 36
Gender: Male
5 6 7/ 1 5 6 7 10 11/1 5 6 7 10 11
4/12/2024 9:27 PM
 
Modify
 
Delete
 
Quote
 
Email
 
User Profile

OFFLINE
Post: 3,914
Registered in: 5/26/2009
Age: 71
Gender: Male
Modena Catanzaro alla fine del 1° T. 1-2
4/12/2024 11:15 PM
 
Modify
 
Delete
 
Quote
 
Email
 
User Profile

OFFLINE
Post: 91,285
Registered in: 7/19/2003
Location: ROMA
Age: 77
Gender: Male
Le corse al trotto sembrano non esistere più...a me piace il galoppo come il trotto, però mi piace anche l'alternanza e non una sequenza continua di corsette al galoppo sempre di 12 cavalli che quasi sempre si riducono a dieci con i ritiri.....questo modo di fare allontana sempre di più i giocatori, come se non bastasse la bassa qualità delle tqq che invece dovrebbero essere il meglio del meglio....... non ci sono più controlli, assistiamo ad arrivi di cavalli che invertono lo stato di forma ed a fronte di arrivi assurdi, c'è sempre un'"entità" che si porta via il montepremi...ce n'è abbastanza per essere schifati e, se non fosse per tenere in piedi il sito, avrei già da tempo smesso di essere presente come ha fatto Patty ormai da tempo, lei però per un motivo molto, ma molto più serio e doloroso.
4/13/2024 8:53 AM
 
Modify
 
Delete
 
Quote
 
Email
 
User Profile

ONLINE
Post: 4,410
Registered in: 12/22/2021
Age: 56
Gender: Male
Senza dubbio d'accordo con Pino per le scelte, un po' meno per le corse ma per un semplice motivo, tra 10/15 giorni il galoppo sarà un sogno come ora per il trotto ma non per semplici motivi di scelta, come si potrebbe supporre, ma perché questi non hanno neanche i soldi per l'energia e figuriamoci se hanno adeguato gli impianti, quindi in notturna saranno pochissimi i giorni che si vedrà il galoppo, per la qualità non ci sono parole da aggiungere a quelle sottolineate da Pino stesso, siamo ai limiti del sopportabile, la corsa di oggi è pro quinte' perché le tris precedenti hanno avuto quota decente e figuriamoci nel voler alienare completamente l'ippica se dovessero andare oltre, oggi con i quattro cavalli, due di Botti, un Grizzetti ed un Gasparini , vorrei capire cosa c'è da giocare, almeno uno dei quattro sarà in terna , e nei cinque almeno due se non tre ,perché come fece Abramovich con il Chelsea ,dopo un po di tentativi e un mare di soldi spesi ,disse ora vi tolgo l'acqua e così tutti sanno com'è finita, e nel parallelo con l'ippica ieri Goccia partecipa a quattro corse delle quali due vinte ,un secondo ed un terzo, per la serie dove passo io non cresce l'erba perché io sui e coi cavalli metto giù soldi e non chiacchiere e nel caso del galoppo vale la stessa regola, quindi Botti e gli altri due sicuramente due se non tre o addirittura quattro nei cinque, che corse sono? Na bella 50€ se va bene un quartè da 100/150 ed il solito unico quintè! Ma non siete stanchi di proporre sempre e solo le stesse logiche? Che schifo veramente!
[Edited by Gal Oppo 4/13/2024 8:55 AM]
4/13/2024 9:11 AM
 
Modify
 
Delete
 
Quote
 
Email
 
User Profile

ONLINE
Post: 11,959
Registered in: 11/12/2010
Location: SESTOLA
Age: 58
Gender: Male
zebu, 12/04/2024 23:15:

Le corse al trotto sembrano non esistere più...a me piace il galoppo come il trotto, però mi piace anche l'alternanza e non una sequenza continua di corsette al galoppo sempre di 12 cavalli che quasi sempre si riducono a dieci con i ritiri.....questo modo di fare allontana sempre di più i giocatori, come se non bastasse la bassa qualità delle tqq che invece dovrebbero essere il meglio del meglio....... non ci sono più controlli, assistiamo ad arrivi di cavalli che invertono lo stato di forma ed a fronte di arrivi assurdi, c'è sempre un'"entità" che si porta via il montepremi...ce n'è abbastanza per essere schifati e, se non fosse per tenere in piedi il sito, avrei già da tempo smesso di essere presente come ha fatto Patty ormai da tempo, lei però per un motivo molto, ma molto più serio e doloroso.

Dobbiamo aspettare lunedì perché l'unico campo sarà Roma trotto e quindi non possono "inventare" nulla.
Tra l'altro sarà una bella tqq di qualità su tre nastri e 19 partenti.
4/13/2024 11:41 AM
 
Modify
 
Delete
 
Quote
 
Email
 
User Profile

OFFLINE
Post: 697
Registered in: 4/10/2023
Location: PARMA
Age: 50
Gender: Male
Per gli amanti della statistica esiste un sistema matematico che mette in gioco tutto il campo dei partecipanti
unica condizione i numeri della tris devono essere obbligatoriamente in ordine crescente
1-2-3/1-2-4 ecc.ecc
sono 220 combinazioni dal costo di 0,50 centesimi l'una per un totale di 110 euro
la formula da me suggerita è in ritardo da 10 turni di solito esce nel giro di 15 turni

questo è lo sviluppo matematico
--------------------------------------------------------------------------------------------------------

1
2
3-4-5-6-7-8-9-10-11-12
--------------------------------------------------------------
1
3
4-5-6-7-8-9-10-11-12
----------------------------------------------------------
1
4
5-6-7-8-9-10-11-12
---------------------------------------------------------------
1
5
6-7-8-9-10-11-12
---------------------------------------------------------------
1
6
7-8-9-10-11-12
-----------------------------------------------------------------
1
7
8-9-10-11-12
-------------------------------------------------------------------
1
8
9-10-11-12
------------------------------------------------------------------
1
9
10-11-12
------------------------------------------------------------------
1
10
11-12
------------------------------------------------------------------
1
11
12
-----------------------------------------------------------------------
2
3
4-5-6-7-8-9-10-11-12
-----------------------------------------------------------------------
2
4
5-6-7-8-9-10-11-12
-------------------------------------------------------------------------
2
5
6-7-8-9-10-11-12
--------------------------------------------------------------------------
2
6
7-8-9-10-11-12
-----------------------------------------------------------------------------
2
7
8-9-10-11-12
-------------------------------------------------------------------------------
2
8
9-10-11-12
-------------------------------------------------------------------
2
9
10-11-12
--------------------------------------------------------------------
2
10
11-12
---------------------------------------------------------------------
2
11
12
-----------------------------------------------------------------------
3
4
5-6-7-8-9-10-11-12
-----------------------------------------------------------------------
3
5
6-7-8-9-10-11-12
----------------------------------------------------------------------------
3
6
7-8-9-10-11-12
---------------------------------------------------------------------------------
3
7
8-9-10-11-12
----------------------------------------------------------------------------------
3
8
9-10-11-12
--------------------------------------------------------------------------------
3
9
10-11-12
------------------------------------------------------------------------------
3
10
11-12

-------------------------------------------------------------------------------------
3
11
12
-------------------------------------------------------------------------------------
4
5
6-7-8-9-10-11-12
------------------------------------------------------------------------------------
4
6
7-8-9-10-11-12
-----------------------------------------------------------------------------------
4
7
8-9-10-11-12
----------------------------------------------------------------------------------
4
8
9-10-11-12
----------------------------------------------------------------------------------
4
9
10-11-12
----------------------------------------------------------------------------------
4
10
11-12
---------------------------------------------------------------------------------
4
11
12
--------------------------------------------------------------------------------
5
6
7-8-9-10-11-12
----------------------------------------------------------------------
5
7
8-9-10-11-12
------------------------------------------------------------------------
5
8
9-10-11-12
----------------------------------------------------------------------------
5
9
10-11-12
-----------------------------------------------------------------------
5
10
11-12
-------------------------------------------------------------------------
5
11
12
------------------------------------------------------------------------
6
7
8-9-10-11-12
--------------------------------------------------------------------------------
6
8
9-10-11-12
--------------------------------------------------------------------------------------
6
9
10-11-12
----------------------------------------------------------------------------
6
10
11-12
-----------------------------------------------------------------------------
6
11
12
--------------------------------------------------------------------------------
7
8
9-10-11-12
----------------------------------------------------------------------------------------
7
9
10-11-12
----------------------------------------------------------------------------------
7
10
11-12
--------------------------------------------------------------------------------
7
11
12
----------------------------------------------------------------------------------
8
9
10-11-12
----------------------------------------------------------------------------
8
10
11-12
----------------------------------------------------------------------------
8
11
12
-------------------------------------------------------------------------
9
10
11-12
--------------------------------------------------------------------------
9
11
12
----------------------------------------------------------------------------
10
11
12
-----------------------------------------------------------------------------------
totale sono 220 combinazioni per 0,50 centesimi per un totale di 110 euro


4/13/2024 2:12 PM
 
Modify
 
Delete
 
Quote
 
Email
 
User Profile

OFFLINE
Post: 91,285
Registered in: 7/19/2003
Location: ROMA
Age: 77
Gender: Male
Prono de Il Tempo

12--10--9
2--1--8
4--6---(7-11)??

Quale sarà il cavallo dimenticato da Il Tempo, se mai ci sarà?? [SM=g27828]
[Edited by zebu 4/13/2024 4:18 PM]
4/13/2024 2:15 PM
 
Modify
 
Delete
 
Quote
 
Email
 
User Profile

OFFLINE
Post: 2,737
Registered in: 9/8/2013
Location: SAN REMO
Age: 36
Gender: Male
Re:
zebu, 13/04/2024 14:12:

Prono de Il Tempo

12--10--9
2--1--8
4--6---??

Quale sarà il cavallo dimenticato da Il Tempo, se mai ci sarà?? [SM=g27828]




Forse il 5 o il 7😌 Cmq oggi ho notato due auto una dietro l'altra , entrambe le targhe erano 4 8 9 , chissà.
[Edited by chewbakka 4/13/2024 2:18 PM]
4/13/2024 3:32 PM
 
Modify
 
Delete
 
Quote
 
Email
 
User Profile

OFFLINE
Post: 3,868
Registered in: 5/14/2003
Age: 58
Gender: Male
Tris acc

1-5 / campo

Ciao

Fabio
4/13/2024 4:17 PM
 
Modify
 
Delete
 
Quote
 
Email
 
User Profile

OFFLINE
Post: 91,285
Registered in: 7/19/2003
Location: ROMA
Age: 77
Gender: Male
per chi cerca la quota.....

La Dritta
10v / 11-12-8-6-2

..cosa ne pensa Mario Sanna jr :

5 CORSA TREVITHICK
" Mi sembra una corsa molto aperta dove il mio allievo che si trova bene sulla sabbia di Varese, sulla pista in erba di San Siro è un pò alterno nelle sue prestazioni, quindi, se dovesse essere nella giornata giusta, una piazza può prenderla altrimenti sarà dura."
4/13/2024 5:09 PM
 
Modify
 
Delete
 
Quote
 
Email
 
User Profile

OFFLINE
Post: 91,285
Registered in: 7/19/2003
Location: ROMA
Age: 77
Gender: Male
Virtuale....
Schiele n.1, un bel grigio, top weight, Dario Vargiu in sella, gabbia n.1, che alla terza vince con un bel grigio e con il n.1......ed un bel grigio, Sopran Islanda, giunge secondo alla seconda corsa dedicata ai g.men e amazzoni....
Schiele è l'unico grigio in corsa nella Tqq dove stanno facendo bene Arras(11) Vargiu(1) Branca (7) e DiTocco (10)....


1) 11-10-1
2) 11-10-1-7-5
3) 11-10-1-7-5-12-3-8-4-6-2-9

nx 12-11-10
nx 7-5-2
nx 6-2-8

T3-Q4 11-1-7-10

i più in forma (si fa per dire) 10-5-2-4
[Edited by zebu 4/13/2024 5:44 PM]
4/13/2024 5:34 PM
 
Modify
 
Delete
 
Quote
 
Email
 
User Profile

ONLINE
Post: 11,959
Registered in: 11/12/2010
Location: SESTOLA
Age: 58
Gender: Male
Due piazzati tra 6-7-11/ campo
4/13/2024 5:48 PM
 
Modify
 
Delete
 
Quote
 
Email
 
User Profile

OFFLINE
Post: 91,285
Registered in: 7/19/2003
Location: ROMA
Age: 77
Gender: Male
Hot

n.2 il numero hot, tre presenze in quattro corse, seguito dal 3.....

2-3-1-7
2-3-1-7-12-4
2-3-1-7-12-4-6-9-11-10

I Mejo

Ad Arras e Vargiu si aggiunge Di Tocco che vince la quarta corsa, poi Branca e Colombi , terzo nella corsa vinta da Di Tocco...

11-1-10-7
11-1-10-7-4
11-1-10-7-4-12-5-6-2-3

4/13/2024 5:54 PM
 
Modify
 
Delete
 
Quote
 
Email
 
User Profile

OFFLINE
Post: 697
Registered in: 4/10/2023
Location: PARMA
Age: 50
Gender: Male
3 piazzato con 1- 5-6-7-9-10-11
4/13/2024 5:55 PM
 
Modify
 
Delete
 
Quote
 
Email
 
User Profile

OFFLINE
Post: 91,285
Registered in: 7/19/2003
Location: ROMA
Age: 77
Gender: Male
Quote sul vincente al tot naz h 17.52
...forbice strettissima con solo due cavalli abbandonati al betting ma con quote a 15 e 19/1 e sono il 9 ed il 2......il 12 non molto giocato...favoriti 7-10-1-11 che coincidono con i Mejo.... [SM=g27822] [SM=g27828]

1. SCHIELE
6,73 € 150,00

2. SOPRAN BRIGIDA
19,06 € 53,00

3. CONTE ATTILIO
9,10 € 111,00
4. SUNNY RIVER
10,00 € 101,00
5. SABRY DEL LUPO
9,18 € 110,00
6. COINS CROSS
9,90 € 102,00

7. PADRE DANIELE
4,10 € 246,00

8. GEORGE MORLAND
10,20 € 99,00

9. GAGLIARDO
14,23 € 71,00

10. LORD BAY
6,35 € 159,00
11. REGENCY BUCK
7,53 € 134,00

12. TREVITHICK
11,61 € 87,00
[Edited by zebu 4/13/2024 6:00 PM]
4/13/2024 5:58 PM
 
Modify
 
Delete
 
Quote
 
Email
 
User Profile

ONLINE
Post: 2,756
Registered in: 2/27/2005
Gender: Male
i miei (salvo biscottoni come già fatto alla 2à)

11/12/1 min 1
2/6/7 max 1
8/9/10 max 1

[SM=x79544] [SM=x79545]
4/13/2024 6:00 PM
 
Modify
 
Delete
 
Quote
 
Email
 
User Profile

OFFLINE
Post: 2,737
Registered in: 9/8/2013
Location: SAN REMO
Age: 36
Gender: Male
Re: Re:
chewbakka, 13/04/2024 14:15:




Forse il 5 o il 7😌 Cmq oggi ho notato due auto una dietro l'altra , entrambe le targhe erano 4 8 9 , chissà.




4/13/2024 6:03 PM
 
Modify
 
Delete
 
Quote
 
Email
 
User Profile

OFFLINE
Post: 6,582
Registered in: 9/8/2019
Age: 63
Gender: Male
Q4 Nx 1-7-10-11
[Edited by singlemad 4/13/2024 6:04 PM]
Admin Thread: | Close | Move | Delete | Modify | Email Notification Previous page | 1 2 3 | Next page
New Thread
Reply
Cerca nel forum
Tag discussione
Discussioni Simili   [vedi tutte]

Feed | Forum | Album | Users | Search | Log In | Register | Admin
Create your free community and forum! Register to FreeForumZone
FreeForumZone [v.6.1] - Leggendo la pagina si accettano regolamento e privacy
Tutti gli orari sono GMT+01:00. Adesso sono le 6:01 PM. : Printable | Mobile
Copyright © 2000-2024 FFZ srl - www.freeforumzone.com